ISO-10303-21;
HEADER;
FILE_DESCRIPTION(('STEP AP214'),'1');
FILE_NAME('C:/TPO v2/SharedFS/Outgoing/hpva76.stp','2015-08-13T12:23:53',('TraceParts'),('TraceParts S.A.'),'Spatial InterOp 3D',' ',' ');
FILE_SCHEMA(('automotive_design'));
ENDSEC;
DATA;
#1=PRODUCT_DEFINITION_CONTEXT('',#9,'design');
#2=APPLICATION_PROTOCOL_DEFINITION('INTERNATIONAL STANDARD','automotive_design',1994,#9);
#3=PRODUCT_CATEGORY_RELATIONSHIP('NONE','NONE',#10,#11);
#4=SHAPE_DEFINITION_REPRESENTATION(#12,#13);
#5= (GEOMETRIC_REPRESENTATION_CONTEXT(3)GLOBAL_UNCERTAINTY_ASSIGNED_CONTEXT((#16))GLOBAL_UNIT_ASSIGNED_CONTEXT((#18,#19,#20))REPRESENTATION_CONTEXT('NONE','WORKSPACE'));
#9=APPLICATION_CONTEXT(' ');
#10=PRODUCT_CATEGORY('part','NONE');
#11=PRODUCT_RELATED_PRODUCT_CATEGORY('detail',' ',(#22));
#12=PRODUCT_DEFINITION_SHAPE('NONE','NONE',#23);
#13=ADVANCED_BREP_SHAPE_REPRESENTATION('1',(#24,#25),#5);
#16=UNCERTAINTY_MEASURE_WITH_UNIT(LENGTH_MEASURE(1.0E-006),#18,'','');
#18= (CONVERSION_BASED_UNIT('MILLIMETRE',#28)LENGTH_UNIT()NAMED_UNIT(#31));
#19= (NAMED_UNIT(#33)PLANE_ANGLE_UNIT()SI_UNIT($,.RADIAN.));
#20= (NAMED_UNIT(#33)SOLID_ANGLE_UNIT()SI_UNIT($,.STERADIAN.));
#22=PRODUCT('1','1','PART-1-DESC',(#39));
#23=PRODUCT_DEFINITION('NONE','NONE',#40,#1);
#24=MANIFOLD_SOLID_BREP('1',#41);
#25=AXIS2_PLACEMENT_3D('',#42,#43,#44);
#28=LENGTH_MEASURE_WITH_UNIT(LENGTH_MEASURE(1.0),#45);
#31=DIMENSIONAL_EXPONENTS(1.0,0.0,0.0,0.0,0.0,0.0,0.0);
#33=DIMENSIONAL_EXPONENTS(0.0,0.0,0.0,0.0,0.0,0.0,0.0);
#39=PRODUCT_CONTEXT('',#9,'mechanical');
#40=PRODUCT_DEFINITION_FORMATION_WITH_SPECIFIED_SOURCE(' ','NONE',#22,.NOT_KNOWN.);
#41=CLOSED_SHELL('',(#46,#47,#48,#49,#50,#51,#52,#53,#54,#55,#56,#57,#58,#59,#60,#61,#62,#63,#64,#65,#66,#67));
#42=CARTESIAN_POINT('',(0.0,0.0,0.0));
#43=DIRECTION('',(0.0,0.0,1.0));
#44=DIRECTION('',(1.0,0.0,0.0));
#45= (NAMED_UNIT(#31)LENGTH_UNIT()SI_UNIT(.MILLI.,.METRE.));
#46=ADVANCED_FACE('',(#69),#70,.T.);
#47=ADVANCED_FACE('',(#71),#72,.T.);
#48=ADVANCED_FACE('',(#73),#74,.T.);
#49=ADVANCED_FACE('',(#75),#76,.T.);
#50=ADVANCED_FACE('',(#77),#78,.T.);
#51=ADVANCED_FACE('',(#79),#80,.T.);
#52=ADVANCED_FACE('',(#81),#82,.T.);
#53=ADVANCED_FACE('',(#83),#84,.F.);
#54=ADVANCED_FACE('',(#85),#86,.F.);
#55=ADVANCED_FACE('',(#87),#88,.T.);
#56=ADVANCED_FACE('',(#89,#90),#91,.T.);
#57=ADVANCED_FACE('',(#92),#93,.T.);
#58=ADVANCED_FACE('',(#94),#95,.T.);
#59=ADVANCED_FACE('',(#96,#97),#98,.T.);
#60=ADVANCED_FACE('',(#99),#100,.T.);
#61=ADVANCED_FACE('',(#101,#102),#103,.T.);
#62=ADVANCED_FACE('',(#104),#105,.T.);
#63=ADVANCED_FACE('',(#106),#107,.T.);
#64=ADVANCED_FACE('',(#108,#109),#110,.T.);
#65=ADVANCED_FACE('',(#111),#112,.T.);
#66=ADVANCED_FACE('',(#113,#114),#115,.T.);
#67=ADVANCED_FACE('',(#116,#117),#118,.T.);
#69=FACE_OUTER_BOUND('',#119,.T.);
#70=CYLINDRICAL_SURFACE('',#120,22.25);
#71=FACE_OUTER_BOUND('',#121,.T.);
#72=CYLINDRICAL_SURFACE('',#122,55.0);
#73=FACE_OUTER_BOUND('',#123,.T.);
#74=CONICAL_SURFACE('',#124,47.0,0.785398163397448);
#75=FACE_OUTER_BOUND('',#125,.T.);
#76=CYLINDRICAL_SURFACE('',#126,37.0);
#77=FACE_OUTER_BOUND('',#127,.T.);
#78=CONICAL_SURFACE('',#128,47.0,0.785398163397448);
#79=FACE_OUTER_BOUND('',#129,.T.);
#80=CYLINDRICAL_SURFACE('',#130,55.0);
#81=FACE_OUTER_BOUND('',#131,.T.);
#82=CYLINDRICAL_SURFACE('',#132,22.25);
#83=FACE_OUTER_BOUND('',#133,.T.);
#84=CYLINDRICAL_SURFACE('',#134,12.5);
#85=FACE_OUTER_BOUND('',#135,.T.);
#86=CYLINDRICAL_SURFACE('',#136,12.5);
#87=FACE_OUTER_BOUND('',#137,.T.);
#88=CYLINDRICAL_SURFACE('',#138,22.25);
#89=FACE_OUTER_BOUND('',#139,.T.);
#90=FACE_BOUND('',#140,.T.);
#91=PLANE('',#141);
#92=FACE_OUTER_BOUND('',#142,.T.);
#93=CYLINDRICAL_SURFACE('',#143,55.0);
#94=FACE_OUTER_BOUND('',#144,.T.);
#95=CONICAL_SURFACE('',#145,47.0,0.785398163397448);
#96=FACE_BOUND('',#146,.T.);
#97=FACE_OUTER_BOUND('',#147,.T.);
#98=PLANE('',#148);
#99=FACE_OUTER_BOUND('',#149,.T.);
#100=CYLINDRICAL_SURFACE('',#150,37.0);
#101=FACE_OUTER_BOUND('',#151,.T.);
#102=FACE_BOUND('',#152,.T.);
#103=PLANE('',#153);
#104=FACE_OUTER_BOUND('',#154,.T.);
#105=CONICAL_SURFACE('',#155,47.0,0.785398163397448);
#106=FACE_OUTER_BOUND('',#156,.T.);
#107=CYLINDRICAL_SURFACE('',#157,55.0);
#108=FACE_BOUND('',#158,.T.);
#109=FACE_OUTER_BOUND('',#159,.T.);
#110=PLANE('',#160);
#111=FACE_OUTER_BOUND('',#161,.T.);
#112=CYLINDRICAL_SURFACE('',#162,22.25);
#113=FACE_BOUND('',#163,.T.);
#114=FACE_OUTER_BOUND('',#164,.T.);
#115=PLANE('',#165);
#116=FACE_BOUND('',#166,.T.);
#117=FACE_OUTER_BOUND('',#167,.T.);
#118=PLANE('',#168);
#119=EDGE_LOOP('',(#169,#170,#171,#172));
#120=AXIS2_PLACEMENT_3D('',#173,#174,#175);
#121=EDGE_LOOP('',(#176,#177,#178,#179));
#122=AXIS2_PLACEMENT_3D('',#180,#181,#182);
#123=EDGE_LOOP('',(#183,#184,#185,#186));
#124=AXIS2_PLACEMENT_3D('',#187,#188,#189);
#125=EDGE_LOOP('',(#190,#191,#192,#193));
#126=AXIS2_PLACEMENT_3D('',#194,#195,#196);
#127=EDGE_LOOP('',(#197,#198,#199,#200));
#128=AXIS2_PLACEMENT_3D('',#201,#202,#203);
#129=EDGE_LOOP('',(#204,#205,#206,#207));
#130=AXIS2_PLACEMENT_3D('',#208,#209,#210);
#131=EDGE_LOOP('',(#211,#212,#213,#214));
#132=AXIS2_PLACEMENT_3D('',#215,#216,#217);
#133=EDGE_LOOP('',(#218,#219,#220,#221));
#134=AXIS2_PLACEMENT_3D('',#222,#223,#224);
#135=EDGE_LOOP('',(#225,#226,#227,#228));
#136=AXIS2_PLACEMENT_3D('',#229,#230,#231);
#137=EDGE_LOOP('',(#232,#233,#234,#235));
#138=AXIS2_PLACEMENT_3D('',#236,#237,#238);
#139=EDGE_LOOP('',(#239,#240));
#140=EDGE_LOOP('',(#241,#242));
#141=AXIS2_PLACEMENT_3D('',#243,#244,#245);
#142=EDGE_LOOP('',(#246,#247,#248,#249));
#143=AXIS2_PLACEMENT_3D('',#250,#251,#252);
#144=EDGE_LOOP('',(#253,#254,#255,#256));
#145=AXIS2_PLACEMENT_3D('',#257,#258,#259);
#146=EDGE_LOOP('',(#260,#261));
#147=EDGE_LOOP('',(#262,#263));
#148=AXIS2_PLACEMENT_3D('',#264,#265,#266);
#149=EDGE_LOOP('',(#267,#268,#269,#270));
#150=AXIS2_PLACEMENT_3D('',#271,#272,#273);
#151=EDGE_LOOP('',(#274,#275));
#152=EDGE_LOOP('',(#276,#277));
#153=AXIS2_PLACEMENT_3D('',#278,#279,#280);
#154=EDGE_LOOP('',(#281,#282,#283,#284));
#155=AXIS2_PLACEMENT_3D('',#285,#286,#287);
#156=EDGE_LOOP('',(#288,#289,#290,#291));
#157=AXIS2_PLACEMENT_3D('',#292,#293,#294);
#158=EDGE_LOOP('',(#295,#296));
#159=EDGE_LOOP('',(#297,#298));
#160=AXIS2_PLACEMENT_3D('',#299,#300,#301);
#161=EDGE_LOOP('',(#302,#303,#304,#305));
#162=AXIS2_PLACEMENT_3D('',#306,#307,#308);
#163=EDGE_LOOP('',(#309,#310));
#164=EDGE_LOOP('',(#311,#312));
#165=AXIS2_PLACEMENT_3D('',#313,#314,#315);
#166=EDGE_LOOP('',(#316,#317));
#167=EDGE_LOOP('',(#318,#319));
#168=AXIS2_PLACEMENT_3D('',#320,#321,#322);
#169=ORIENTED_EDGE('',*,*,#323,.F.);
#170=ORIENTED_EDGE('',*,*,#324,.T.);
#171=ORIENTED_EDGE('',*,*,#325,.F.);
#172=ORIENTED_EDGE('',*,*,#326,.F.);
#173=CARTESIAN_POINT('',(45.5,0.0,0.0));
#174=DIRECTION('',(1.0,0.0,0.0));
#175=DIRECTION('',(0.0,1.0,0.0));
#176=ORIENTED_EDGE('',*,*,#327,.F.);
#177=ORIENTED_EDGE('',*,*,#328,.T.);
#178=ORIENTED_EDGE('',*,*,#329,.F.);
#179=ORIENTED_EDGE('',*,*,#330,.F.);
#180=CARTESIAN_POINT('',(42.5,0.0,0.0));
#181=DIRECTION('',(1.0,0.0,0.0));
#182=DIRECTION('',(0.0,1.0,0.0));
#183=ORIENTED_EDGE('',*,*,#331,.F.);
#184=ORIENTED_EDGE('',*,*,#332,.T.);
#185=ORIENTED_EDGE('',*,*,#333,.F.);
#186=ORIENTED_EDGE('',*,*,#328,.F.);
#187=CARTESIAN_POINT('',(32.0,0.0,0.0));
#188=DIRECTION('',(1.0,-0.0,-0.0));
#189=DIRECTION('',(0.0,1.0,0.0));
#190=ORIENTED_EDGE('',*,*,#334,.F.);
#191=ORIENTED_EDGE('',*,*,#335,.T.);
#192=ORIENTED_EDGE('',*,*,#336,.F.);
#193=ORIENTED_EDGE('',*,*,#337,.F.);
#194=CARTESIAN_POINT('',(23.0,0.0,0.0));
#195=DIRECTION('',(1.0,0.0,0.0));
#196=DIRECTION('',(0.0,1.0,0.0));
#197=ORIENTED_EDGE('',*,*,#338,.F.);
#198=ORIENTED_EDGE('',*,*,#339,.T.);
#199=ORIENTED_EDGE('',*,*,#340,.F.);
#200=ORIENTED_EDGE('',*,*,#341,.F.);
#201=CARTESIAN_POINT('',(14.0,0.0,0.0));
#202=DIRECTION('',(-1.0,-0.0,-0.0));
#203=DIRECTION('',(0.0,1.0,0.0));
#204=ORIENTED_EDGE('',*,*,#342,.F.);
#205=ORIENTED_EDGE('',*,*,#343,.T.);
#206=ORIENTED_EDGE('',*,*,#344,.F.);
#207=ORIENTED_EDGE('',*,*,#339,.F.);
#208=CARTESIAN_POINT('',(3.5,0.0,0.0));
#209=DIRECTION('',(1.0,0.0,0.0));
#210=DIRECTION('',(0.0,1.0,0.0));
#211=ORIENTED_EDGE('',*,*,#345,.F.);
#212=ORIENTED_EDGE('',*,*,#346,.T.);
#213=ORIENTED_EDGE('',*,*,#347,.F.);
#214=ORIENTED_EDGE('',*,*,#348,.F.);
#215=CARTESIAN_POINT('',(0.500000000000007,0.0,0.0));
#216=DIRECTION('',(1.0,0.0,0.0));
#217=DIRECTION('',(0.0,1.0,0.0));
#218=ORIENTED_EDGE('',*,*,#349,.F.);
#219=ORIENTED_EDGE('',*,*,#350,.F.);
#220=ORIENTED_EDGE('',*,*,#351,.F.);
#221=ORIENTED_EDGE('',*,*,#352,.F.);
#222=CARTESIAN_POINT('',(23.0,0.0,0.0));
#223=DIRECTION('',(1.0,0.0,0.0));
#224=DIRECTION('',(0.0,0.0,-1.0));
#225=ORIENTED_EDGE('',*,*,#349,.T.);
#226=ORIENTED_EDGE('',*,*,#353,.F.);
#227=ORIENTED_EDGE('',*,*,#351,.T.);
#228=ORIENTED_EDGE('',*,*,#354,.F.);
#229=CARTESIAN_POINT('',(23.0,0.0,0.0));
#230=DIRECTION('',(1.0,0.0,0.0));
#231=DIRECTION('',(0.0,0.0,-1.0));
#232=ORIENTED_EDGE('',*,*,#345,.T.);
#233=ORIENTED_EDGE('',*,*,#355,.F.);
#234=ORIENTED_EDGE('',*,*,#347,.T.);
#235=ORIENTED_EDGE('',*,*,#356,.T.);
#236=CARTESIAN_POINT('',(0.500000000000007,0.0,0.0));
#237=DIRECTION('',(1.0,0.0,0.0));
#238=DIRECTION('',(0.0,1.0,0.0));
#239=ORIENTED_EDGE('',*,*,#343,.F.);
#240=ORIENTED_EDGE('',*,*,#357,.F.);
#241=ORIENTED_EDGE('',*,*,#348,.T.);
#242=ORIENTED_EDGE('',*,*,#355,.T.);
#243=CARTESIAN_POINT('',(1.00000000000001,38.625,0.0));
#244=DIRECTION('',(-1.0,-0.0,0.0));
#245=DIRECTION('',(0.0,-1.0,-0.0));
#246=ORIENTED_EDGE('',*,*,#342,.T.);
#247=ORIENTED_EDGE('',*,*,#358,.F.);
#248=ORIENTED_EDGE('',*,*,#344,.T.);
#249=ORIENTED_EDGE('',*,*,#357,.T.);
#250=CARTESIAN_POINT('',(3.5,0.0,0.0));
#251=DIRECTION('',(1.0,0.0,0.0));
#252=DIRECTION('',(0.0,1.0,0.0));
#253=ORIENTED_EDGE('',*,*,#338,.T.);
#254=ORIENTED_EDGE('',*,*,#359,.F.);
#255=ORIENTED_EDGE('',*,*,#340,.T.);
#256=ORIENTED_EDGE('',*,*,#358,.T.);
#257=CARTESIAN_POINT('',(14.0,0.0,0.0));
#258=DIRECTION('',(-1.0,-0.0,-0.0));
#259=DIRECTION('',(0.0,1.0,0.0));
#260=ORIENTED_EDGE('',*,*,#335,.F.);
#261=ORIENTED_EDGE('',*,*,#360,.F.);
#262=ORIENTED_EDGE('',*,*,#341,.T.);
#263=ORIENTED_EDGE('',*,*,#359,.T.);
#264=CARTESIAN_POINT('',(22.0,38.0,0.0));
#265=DIRECTION('',(1.0,0.0,0.0));
#266=DIRECTION('',(0.0,1.0,0.0));
#267=ORIENTED_EDGE('',*,*,#334,.T.);
#268=ORIENTED_EDGE('',*,*,#361,.F.);
#269=ORIENTED_EDGE('',*,*,#336,.T.);
#270=ORIENTED_EDGE('',*,*,#360,.T.);
#271=CARTESIAN_POINT('',(23.0,0.0,0.0));
#272=DIRECTION('',(1.0,0.0,0.0));
#273=DIRECTION('',(0.0,1.0,0.0));
#274=ORIENTED_EDGE('',*,*,#332,.F.);
#275=ORIENTED_EDGE('',*,*,#362,.F.);
#276=ORIENTED_EDGE('',*,*,#337,.T.);
#277=ORIENTED_EDGE('',*,*,#361,.T.);
#278=CARTESIAN_POINT('',(24.0,38.0,0.0));
#279=DIRECTION('',(-1.0,0.0,0.0));
#280=DIRECTION('',(0.0,-1.0,0.0));
#281=ORIENTED_EDGE('',*,*,#331,.T.);
#282=ORIENTED_EDGE('',*,*,#363,.F.);
#283=ORIENTED_EDGE('',*,*,#333,.T.);
#284=ORIENTED_EDGE('',*,*,#362,.T.);
#285=CARTESIAN_POINT('',(32.0,0.0,0.0));
#286=DIRECTION('',(1.0,-0.0,-0.0));
#287=DIRECTION('',(0.0,1.0,0.0));
#288=ORIENTED_EDGE('',*,*,#327,.T.);
#289=ORIENTED_EDGE('',*,*,#364,.F.);
#290=ORIENTED_EDGE('',*,*,#329,.T.);
#291=ORIENTED_EDGE('',*,*,#363,.T.);
#292=CARTESIAN_POINT('',(42.5,0.0,0.0));
#293=DIRECTION('',(1.0,0.0,0.0));
#294=DIRECTION('',(0.0,1.0,0.0));
#295=ORIENTED_EDGE('',*,*,#324,.F.);
#296=ORIENTED_EDGE('',*,*,#365,.F.);
#297=ORIENTED_EDGE('',*,*,#330,.T.);
#298=ORIENTED_EDGE('',*,*,#364,.T.);
#299=CARTESIAN_POINT('',(45.0,38.625,0.0));
#300=DIRECTION('',(1.0,0.0,0.0));
#301=DIRECTION('',(0.0,1.0,0.0));
#302=ORIENTED_EDGE('',*,*,#323,.T.);
#303=ORIENTED_EDGE('',*,*,#366,.F.);
#304=ORIENTED_EDGE('',*,*,#325,.T.);
#305=ORIENTED_EDGE('',*,*,#365,.T.);
#306=CARTESIAN_POINT('',(45.5,0.0,0.0));
#307=DIRECTION('',(1.0,0.0,0.0));
#308=DIRECTION('',(0.0,1.0,0.0));
#309=ORIENTED_EDGE('',*,*,#350,.T.);
#310=ORIENTED_EDGE('',*,*,#354,.T.);
#311=ORIENTED_EDGE('',*,*,#326,.T.);
#312=ORIENTED_EDGE('',*,*,#366,.T.);
#313=CARTESIAN_POINT('',(46.0,11.125,0.0));
#314=DIRECTION('',(1.0,-6.12303176911189E-017,0.0));
#315=DIRECTION('',(6.12303176911189E-017,1.0,0.0));
#316=ORIENTED_EDGE('',*,*,#353,.T.);
#317=ORIENTED_EDGE('',*,*,#352,.T.);
#318=ORIENTED_EDGE('',*,*,#346,.F.);
#319=ORIENTED_EDGE('',*,*,#356,.F.);
#320=CARTESIAN_POINT('',(0.0,11.125,0.0));
#321=DIRECTION('',(-1.0,3.1934504977982E-016,0.0));
#322=DIRECTION('',(-3.1934504977982E-016,-1.0,-0.0));
#323=EDGE_CURVE('',#367,#368,#369,.T.);
#324=EDGE_CURVE('',#367,#370,#371,.T.);
#325=EDGE_CURVE('',#372,#370,#373,.T.);
#326=EDGE_CURVE('',#368,#372,#374,.T.);
#327=EDGE_CURVE('',#375,#376,#377,.T.);
#328=EDGE_CURVE('',#375,#378,#379,.T.);
#329=EDGE_CURVE('',#380,#378,#381,.T.);
#330=EDGE_CURVE('',#376,#380,#382,.T.);
#331=EDGE_CURVE('',#383,#375,#384,.T.);
#332=EDGE_CURVE('',#383,#385,#386,.T.);
#333=EDGE_CURVE('',#378,#385,#387,.T.);
#334=EDGE_CURVE('',#388,#389,#390,.T.);
#335=EDGE_CURVE('',#388,#391,#392,.T.);
#336=EDGE_CURVE('',#393,#391,#394,.T.);
#337=EDGE_CURVE('',#389,#393,#395,.T.);
#338=EDGE_CURVE('',#396,#397,#398,.T.);
#339=EDGE_CURVE('',#396,#399,#400,.T.);
#340=EDGE_CURVE('',#401,#399,#402,.T.);
#341=EDGE_CURVE('',#397,#401,#403,.T.);
#342=EDGE_CURVE('',#404,#396,#405,.T.);
#343=EDGE_CURVE('',#404,#406,#407,.T.);
#344=EDGE_CURVE('',#399,#406,#408,.T.);
#345=EDGE_CURVE('',#409,#410,#411,.T.);
#346=EDGE_CURVE('',#409,#412,#413,.T.);
#347=EDGE_CURVE('',#414,#412,#415,.T.);
#348=EDGE_CURVE('',#410,#414,#416,.T.);
#349=EDGE_CURVE('',#417,#418,#419,.T.);
#350=EDGE_CURVE('',#420,#417,#421,.T.);
#351=EDGE_CURVE('',#422,#420,#423,.T.);
#352=EDGE_CURVE('',#418,#422,#424,.T.);
#353=EDGE_CURVE('',#422,#418,#425,.T.);
#354=EDGE_CURVE('',#417,#420,#426,.T.);
#355=EDGE_CURVE('',#414,#410,#427,.T.);
#356=EDGE_CURVE('',#412,#409,#428,.T.);
#357=EDGE_CURVE('',#406,#404,#429,.T.);
#358=EDGE_CURVE('',#399,#396,#430,.T.);
#359=EDGE_CURVE('',#401,#397,#431,.T.);
#360=EDGE_CURVE('',#391,#388,#432,.T.);
#361=EDGE_CURVE('',#393,#389,#433,.T.);
#362=EDGE_CURVE('',#385,#383,#434,.T.);
#363=EDGE_CURVE('',#378,#375,#435,.T.);
#364=EDGE_CURVE('',#380,#376,#436,.T.);
#365=EDGE_CURVE('',#370,#367,#437,.T.);
#366=EDGE_CURVE('',#372,#368,#438,.T.);
#367=VERTEX_POINT('',#439);
#368=VERTEX_POINT('',#440);
#369=LINE('',#441,#442);
#370=VERTEX_POINT('',#443);
#371=CIRCLE('',#444,22.25);
#372=VERTEX_POINT('',#445);
#373=LINE('',#446,#447);
#374=CIRCLE('',#448,22.25);
#375=VERTEX_POINT('',#449);
#376=VERTEX_POINT('',#450);
#377=LINE('',#451,#452);
#378=VERTEX_POINT('',#453);
#379=CIRCLE('',#454,55.0);
#380=VERTEX_POINT('',#455);
#381=LINE('',#456,#457);
#382=CIRCLE('',#458,55.0);
#383=VERTEX_POINT('',#459);
#384=LINE('',#460,#461);
#385=VERTEX_POINT('',#462);
#386=CIRCLE('',#463,39.0);
#387=LINE('',#464,#465);
#388=VERTEX_POINT('',#466);
#389=VERTEX_POINT('',#467);
#390=LINE('',#468,#469);
#391=VERTEX_POINT('',#470);
#392=CIRCLE('',#471,37.0);
#393=VERTEX_POINT('',#472);
#394=LINE('',#473,#474);
#395=CIRCLE('',#475,37.0);
#396=VERTEX_POINT('',#476);
#397=VERTEX_POINT('',#477);
#398=LINE('',#478,#479);
#399=VERTEX_POINT('',#480);
#400=CIRCLE('',#481,55.0);
#401=VERTEX_POINT('',#482);
#402=LINE('',#483,#484);
#403=CIRCLE('',#485,39.0);
#404=VERTEX_POINT('',#486);
#405=LINE('',#487,#488);
#406=VERTEX_POINT('',#489);
#407=CIRCLE('',#490,55.0);
#408=LINE('',#491,#492);
#409=VERTEX_POINT('',#493);
#410=VERTEX_POINT('',#494);
#411=LINE('',#495,#496);
#412=VERTEX_POINT('',#497);
#413=CIRCLE('',#498,22.25);
#414=VERTEX_POINT('',#499);
#415=LINE('',#500,#501);
#416=CIRCLE('',#502,22.25);
#417=VERTEX_POINT('',#503);
#418=VERTEX_POINT('',#504);
#419=LINE('',#505,#506);
#420=VERTEX_POINT('',#507);
#421=CIRCLE('',#508,12.5);
#422=VERTEX_POINT('',#509);
#423=LINE('',#510,#511);
#424=CIRCLE('',#512,12.5);
#425=CIRCLE('',#513,12.5);
#426=CIRCLE('',#514,12.5);
#427=CIRCLE('',#515,22.25);
#428=CIRCLE('',#516,22.25);
#429=CIRCLE('',#517,55.0);
#430=CIRCLE('',#518,55.0);
#431=CIRCLE('',#519,39.0);
#432=CIRCLE('',#520,37.0);
#433=CIRCLE('',#521,37.0);
#434=CIRCLE('',#522,39.0);
#435=CIRCLE('',#523,55.0);
#436=CIRCLE('',#524,55.0);
#437=CIRCLE('',#525,22.25);
#438=CIRCLE('',#526,22.25);
#439=CARTESIAN_POINT('',(45.0,22.25,0.0));
#440=CARTESIAN_POINT('',(46.0,22.25,0.0));
#441=CARTESIAN_POINT('',(45.5,22.25,-2.72474913725479E-015));
#442=VECTOR('',#527,1.0);
#443=CARTESIAN_POINT('',(45.0,-22.25,2.72474913725479E-015));
#444=AXIS2_PLACEMENT_3D('',#528,#529,#530);
#445=CARTESIAN_POINT('',(46.0,-22.25,2.72474913725479E-015));
#446=CARTESIAN_POINT('',(45.5,-22.25,2.72474913725479E-015));
#447=VECTOR('',#531,1.0);
#448=AXIS2_PLACEMENT_3D('',#532,#533,#534);
#449=CARTESIAN_POINT('',(40.0,55.0,0.0));
#450=CARTESIAN_POINT('',(45.0,55.0,0.0));
#451=CARTESIAN_POINT('',(42.5,55.0,-6.73533494602307E-015));
#452=VECTOR('',#535,1.0);
#453=CARTESIAN_POINT('',(40.0,-55.0,6.73533494602307E-015));
#454=AXIS2_PLACEMENT_3D('',#536,#537,#538);
#455=CARTESIAN_POINT('',(45.0,-55.0,6.73533494602307E-015));
#456=CARTESIAN_POINT('',(42.5,-55.0,6.73533494602307E-015));
#457=VECTOR('',#539,1.0);
#458=AXIS2_PLACEMENT_3D('',#540,#541,#542);
#459=CARTESIAN_POINT('',(24.0,39.0,0.0));
#460=CARTESIAN_POINT('',(32.0,47.0,-5.75564986296517E-015));
#461=VECTOR('',#543,1.0);
#462=CARTESIAN_POINT('',(24.0,-39.0,4.77596477990727E-015));
#463=AXIS2_PLACEMENT_3D('',#544,#545,#546);
#464=CARTESIAN_POINT('',(32.0,-47.0,5.75564986296517E-015));
#465=VECTOR('',#547,1.0);
#466=CARTESIAN_POINT('',(22.0,37.0,0.0));
#467=CARTESIAN_POINT('',(24.0,37.0,0.0));
#468=CARTESIAN_POINT('',(23.0,37.0,-4.5310435091428E-015));
#469=VECTOR('',#548,1.0);
#470=CARTESIAN_POINT('',(22.0,-37.0,4.5310435091428E-015));
#471=AXIS2_PLACEMENT_3D('',#549,#550,#551);
#472=CARTESIAN_POINT('',(24.0,-37.0,4.5310435091428E-015));
#473=CARTESIAN_POINT('',(23.0,-37.0,4.5310435091428E-015));
#474=VECTOR('',#552,1.0);
#475=AXIS2_PLACEMENT_3D('',#553,#554,#555);
#476=CARTESIAN_POINT('',(5.99999999999999,55.0,0.0));
#477=CARTESIAN_POINT('',(22.0,39.0,0.0));
#478=CARTESIAN_POINT('',(14.0,47.0,-5.75564986296517E-015));
#479=VECTOR('',#556,1.0);
#480=CARTESIAN_POINT('',(5.99999999999999,-55.0,6.73533494602307E-015));
#481=AXIS2_PLACEMENT_3D('',#557,#558,#559);
#482=CARTESIAN_POINT('',(22.0,-39.0,4.77596477990727E-015));
#483=CARTESIAN_POINT('',(14.0,-47.0,5.75564986296517E-015));
#484=VECTOR('',#560,1.0);
#485=AXIS2_PLACEMENT_3D('',#561,#562,#563);
#486=CARTESIAN_POINT('',(1.00000000000001,55.0,0.0));
#487=CARTESIAN_POINT('',(3.5,55.0,-6.73533494602307E-015));
#488=VECTOR('',#564,1.0);
#489=CARTESIAN_POINT('',(1.00000000000001,-55.0,6.73533494602307E-015));
#490=AXIS2_PLACEMENT_3D('',#565,#566,#567);
#491=CARTESIAN_POINT('',(3.5,-55.0,6.73533494602307E-015));
#492=VECTOR('',#568,1.0);
#493=CARTESIAN_POINT('',(7.105427357601E-015,22.25,0.0));
#494=CARTESIAN_POINT('',(1.00000000000001,22.25,0.0));
#495=CARTESIAN_POINT('',(0.500000000000007,22.25,-2.72474913725479E-015));
#496=VECTOR('',#569,1.0);
#497=CARTESIAN_POINT('',(7.105427357601E-015,-22.25,2.72474913725479E-015));
#498=AXIS2_PLACEMENT_3D('',#570,#571,#572);
#499=CARTESIAN_POINT('',(1.00000000000001,-22.25,2.72474913725479E-015));
#500=CARTESIAN_POINT('',(0.500000000000007,-22.25,2.72474913725479E-015));
#501=VECTOR('',#573,1.0);
#502=AXIS2_PLACEMENT_3D('',#574,#575,#576);
#503=CARTESIAN_POINT('',(46.0,-1.53075794227797E-015,-12.5));
#504=CARTESIAN_POINT('',(-1.66162447069469E-030,-1.53075794227797E-015,-12.5));
#505=CARTESIAN_POINT('',(23.0,-1.53075794227797E-015,-12.5));
#506=VECTOR('',#577,1.0);
#507=CARTESIAN_POINT('',(46.0,1.53075794227797E-015,12.5));
#508=AXIS2_PLACEMENT_3D('',#578,#579,#580);
#509=CARTESIAN_POINT('',(-4.88839971277614E-031,-1.53075794227797E-015,12.5));
#510=CARTESIAN_POINT('',(23.0,1.53075794227797E-015,12.5));
#511=VECTOR('',#581,1.0);
#512=AXIS2_PLACEMENT_3D('',#582,#583,#584);
#513=AXIS2_PLACEMENT_3D('',#585,#586,#587);
#514=AXIS2_PLACEMENT_3D('',#588,#589,#590);
#515=AXIS2_PLACEMENT_3D('',#591,#592,#593);
#516=AXIS2_PLACEMENT_3D('',#594,#595,#596);
#517=AXIS2_PLACEMENT_3D('',#597,#598,#599);
#518=AXIS2_PLACEMENT_3D('',#600,#601,#602);
#519=AXIS2_PLACEMENT_3D('',#603,#604,#605);
#520=AXIS2_PLACEMENT_3D('',#606,#607,#608);
#521=AXIS2_PLACEMENT_3D('',#609,#610,#611);
#522=AXIS2_PLACEMENT_3D('',#612,#613,#614);
#523=AXIS2_PLACEMENT_3D('',#615,#616,#617);
#524=AXIS2_PLACEMENT_3D('',#618,#619,#620);
#525=AXIS2_PLACEMENT_3D('',#621,#622,#623);
#526=AXIS2_PLACEMENT_3D('',#624,#625,#626);
#527=DIRECTION('',(1.0,0.0,0.0));
#528=CARTESIAN_POINT('',(45.0,0.0,0.0));
#529=DIRECTION('',(1.0,0.0,0.0));
#530=DIRECTION('',(0.0,1.0,0.0));
#531=DIRECTION('',(-1.0,-0.0,-0.0));
#532=CARTESIAN_POINT('',(46.0,0.0,0.0));
#533=DIRECTION('',(1.0,0.0,0.0));
#534=DIRECTION('',(0.0,1.0,0.0));
#535=DIRECTION('',(1.0,0.0,0.0));
#536=CARTESIAN_POINT('',(40.0,0.0,0.0));
#537=DIRECTION('',(1.0,0.0,0.0));
#538=DIRECTION('',(0.0,1.0,0.0));
#539=DIRECTION('',(-1.0,-0.0,-0.0));
#540=CARTESIAN_POINT('',(45.0,0.0,0.0));
#541=DIRECTION('',(1.0,0.0,0.0));
#542=DIRECTION('',(0.0,1.0,0.0));
#543=DIRECTION('',(0.707106781186548,0.707106781186547,-8.65927457071935E-017));
#544=CARTESIAN_POINT('',(24.0,0.0,0.0));
#545=DIRECTION('',(1.0,0.0,0.0));
#546=DIRECTION('',(0.0,1.0,0.0));
#547=DIRECTION('',(-0.707106781186548,0.707106781186547,-8.65927457071936E-017));
#548=DIRECTION('',(1.0,0.0,0.0));
#549=CARTESIAN_POINT('',(22.0,0.0,0.0));
#550=DIRECTION('',(1.0,0.0,0.0));
#551=DIRECTION('',(0.0,1.0,0.0));
#552=DIRECTION('',(-1.0,-0.0,-0.0));
#553=CARTESIAN_POINT('',(24.0,0.0,0.0));
#554=DIRECTION('',(1.0,0.0,0.0));
#555=DIRECTION('',(0.0,1.0,0.0));
#556=DIRECTION('',(0.707106781186548,-0.707106781186547,8.65927457071935E-017));
#557=CARTESIAN_POINT('',(5.99999999999999,0.0,0.0));
#558=DIRECTION('',(1.0,0.0,0.0));
#559=DIRECTION('',(0.0,1.0,0.0));
#560=DIRECTION('',(-0.707106781186548,-0.707106781186547,8.65927457071935E-017));
#561=CARTESIAN_POINT('',(22.0,0.0,0.0));
#562=DIRECTION('',(1.0,0.0,0.0));
#563=DIRECTION('',(0.0,1.0,0.0));
#564=DIRECTION('',(1.0,0.0,0.0));
#565=CARTESIAN_POINT('',(1.00000000000001,0.0,0.0));
#566=DIRECTION('',(1.0,0.0,0.0));
#567=DIRECTION('',(0.0,1.0,0.0));
#568=DIRECTION('',(-1.0,-0.0,-0.0));
#569=DIRECTION('',(1.0,0.0,0.0));
#570=CARTESIAN_POINT('',(7.105427357601E-015,0.0,0.0));
#571=DIRECTION('',(1.0,0.0,0.0));
#572=DIRECTION('',(0.0,1.0,0.0));
#573=DIRECTION('',(-1.0,-0.0,-0.0));
#574=CARTESIAN_POINT('',(1.00000000000001,0.0,0.0));
#575=DIRECTION('',(1.0,0.0,0.0));
#576=DIRECTION('',(0.0,1.0,0.0));
#577=DIRECTION('',(-1.0,0.0,0.0));
#578=CARTESIAN_POINT('',(46.0,0.0,0.0));
#579=DIRECTION('',(-1.0,6.12303176911189E-017,0.0));
#580=DIRECTION('',(0.0,0.0,-1.0));
#581=DIRECTION('',(1.0,0.0,0.0));
#582=CARTESIAN_POINT('',(0.0,0.0,0.0));
#583=DIRECTION('',(1.0,-3.1934504977982E-016,0.0));
#584=DIRECTION('',(0.0,0.0,-1.0));
#585=CARTESIAN_POINT('',(0.0,0.0,0.0));
#586=DIRECTION('',(1.0,-3.1934504977982E-016,0.0));
#587=DIRECTION('',(0.0,0.0,-1.0));
#588=CARTESIAN_POINT('',(46.0,0.0,0.0));
#589=DIRECTION('',(-1.0,6.12303176911189E-017,0.0));
#590=DIRECTION('',(0.0,0.0,-1.0));
#591=CARTESIAN_POINT('',(1.00000000000001,0.0,0.0));
#592=DIRECTION('',(1.0,0.0,0.0));
#593=DIRECTION('',(0.0,1.0,0.0));
#594=CARTESIAN_POINT('',(7.105427357601E-015,0.0,0.0));
#595=DIRECTION('',(1.0,0.0,0.0));
#596=DIRECTION('',(0.0,1.0,0.0));
#597=CARTESIAN_POINT('',(1.00000000000001,0.0,0.0));
#598=DIRECTION('',(1.0,0.0,0.0));
#599=DIRECTION('',(0.0,1.0,0.0));
#600=CARTESIAN_POINT('',(5.99999999999999,0.0,0.0));
#601=DIRECTION('',(1.0,0.0,0.0));
#602=DIRECTION('',(0.0,1.0,0.0));
#603=CARTESIAN_POINT('',(22.0,0.0,0.0));
#604=DIRECTION('',(1.0,0.0,0.0));
#605=DIRECTION('',(0.0,1.0,0.0));
#606=CARTESIAN_POINT('',(22.0,0.0,0.0));
#607=DIRECTION('',(1.0,0.0,0.0));
#608=DIRECTION('',(0.0,1.0,0.0));
#609=CARTESIAN_POINT('',(24.0,0.0,0.0));
#610=DIRECTION('',(1.0,0.0,0.0));
#611=DIRECTION('',(0.0,1.0,0.0));
#612=CARTESIAN_POINT('',(24.0,0.0,0.0));
#613=DIRECTION('',(1.0,0.0,0.0));
#614=DIRECTION('',(0.0,1.0,0.0));
#615=CARTESIAN_POINT('',(40.0,0.0,0.0));
#616=DIRECTION('',(1.0,0.0,0.0));
#617=DIRECTION('',(0.0,1.0,0.0));
#618=CARTESIAN_POINT('',(45.0,0.0,0.0));
#619=DIRECTION('',(1.0,0.0,0.0));
#620=DIRECTION('',(0.0,1.0,0.0));
#621=CARTESIAN_POINT('',(45.0,0.0,0.0));
#622=DIRECTION('',(1.0,0.0,0.0));
#623=DIRECTION('',(0.0,1.0,0.0));
#624=CARTESIAN_POINT('',(46.0,0.0,0.0));
#625=DIRECTION('',(1.0,0.0,0.0));
#626=DIRECTION('',(0.0,1.0,0.0));
ENDSEC;
END-ISO-10303-21;
